Cum se citeste o tabulatura?

Dupa ce am invatat corzile chitarei, este timpul sa invatam cum se citeste o tabulatura . O tabulatura, sau TAB, este reprezentarea grafica a celor 6 corzi. Daca ar fi sa reprezentam grafic o tabulatura goala, fara nici un sunet, aceasta ar arata asa:

e|-------------------------------------------------------------------------------------------
B|-------------------------------------------------------------------------------------------
G|-------------------------------------------------------------------------------------------
D|-------------------------------------------------------------------------------------------
A|-------------------------------------------------------------------------------------------
E|-------------------------------------------------------------------------------------------

Acum sa ne uitam la urmatoarea tabulatura:

e|----0-3-2-0-3-0-2-0--------------------------------------------------------------------
B|--0-----------------1-3-0----------------------------------------------------------------
G|-------------------------------------------------------------------------------------------
D|-------------------------------------------------------------------------------------------
A|-------------------------------------------------------------------------------------------
E|-------------------------------------------------------------------------------------------

Aceasta se citeste de la stanga la drapta in felul urmator: coarda B(a 2-a) se ciupeste libera(fara sa se apese pe nici un fret). In continuare ciupim coarda e(prima) tot libera, urmeaza sa ciupim tot coarda e dar apasand in acelasi timp pe fretul 3 al acestia, apoi ciupim coarda e apasand pe fretul 2, apoi libera, apasand fretul 3,  din nou libera, apasand fretul 2, libera. Trecem la ciupirea corzii B tinand apasat  fretul 1 al acesteia, urmand sa o ciupim apasand fretul 3 iar apoi ciupita libera. Dupa v-ati dat seama deja, linia pe care se afla numarul reprezinta coarda care va fi cantata, iar numarul reprezinta fretul care trebuie apasat cu mana stanga, in timp ce ciupim coarda respectiva.

Sa citim urmatoarea tabulatura:

 [C]-[Do]  [D]-[Re]
e|---0--------2------------------------------------------------------------------------------
B|---1--------3------------------------------------------------------------------------------
G|---0--------2------------------------------------------------------------------------------
D|---2--------0------------------------------------------------------------------------------
A|---3--------x------------------------------------------------------------------------------
E|---x--------x------------------------------------------------------------------------------

Aceasta se citeste astfel: se vor forma acordurile [C]-[Do] si [D]-[Re] si se va canta o singura data fiecare acrod. In engleza se chema strumming. X-ul inseamna ca respectiva coarda nu trebuie sa se auda!

Urmatoarea tabulatura este putin diferita:

  C
Am plecat să colindăm
C
Domn, domn, să-nălţăm.
G               C
Când boierii nu-s acasă
G           C
Domn, domn, să-nălţăm. 

Se citeste mult mai usor. Ne spune ca se folosesc doua acorduri, C – Do si D – Re. Ne spune cand intra urmatorul acord. De asemenea trebuie precizata si bataia(ritmul). In cazul de fata bataia este jos sus jos sus, iar acordul se schimba atunci cand se ajunge la cuvantul deasupra caruia este acesta scris.

Acesta a fost articolul despre cum se citeste o tabulatura, pentru tabulaturi romanesti recomand tabulaturi.ro, iar pentru tabulaturi internationale recomand ultimate-guitar.com sau songsterr.com.

cum se citeste o tabulatura

Lasa un comentariu

Your email address will not be published. Required fields are marked *